УРОКИ ИГРЫ НА ГИТАРЕ:

Урок 14 Как читать табулатуры

Добавить в избранное

В этом уроке узнаем, что такое табулатура и поупражняемся в растяжке пальцев.


Как читать табулатуры?

Таблатypa — способ музыкальной записи, в котором используется графическое изображение положения пальцев в соответствии со структypными особенностями инстpyмента. Преимущество таблатур заключается в том, что они наглядно показывают расположение пальцев на грифе ; недостатком такого способа является то, что он показывает только позицию пальцев (т.е. ноту), но не дает реального ощущения длительности ноты (т.е. как долго держать ноту или аккорд). Основу гитарных таблатур составляет изображение шейки грифа гитары.

e|-------------------------------------------------------|
B|-------------------------------------------------------|
G|-------------------------------------------------------|
D|-------------------------------------------------------|
A|-------------------------------------------------------|
E|-------------------------------------------------------|

Бyквы пpиписанные стpyнам гитаpы —

e — 1ая стpyна — веpхнее E(ми)
B — 2ая стpyна
G — 3ья стpyна
D — 4ая стpyна
A — 5ая стpyна
E — 6ая стpyна — нижнее E

Цифры, расположенные на диаграмме, обозначают номер лада, на котором необходимо прижать струну. Так, если вы видите следующее:
e|--------------
B|--------------
G|--------------
D|--------------
A|----3---------
E|--------------
то играйте ноту, которую вы услышите, если прижмете пятую струну на третьем ладу грифа. Открытые (не прижатые) струны обозначаются 'O'; Струны, которые не должны звучать в аккорде помечаются 'X' — это имеет значение только для аккордов.

Для аккордов все цифры обозначающие лады на каждой струне расположены вертикально в одну линию. Ниже изображен основной аккорд С .

e|----0--------- 1ая стpyна, откpыта
B|----1--------- 2ая стpyна, 1ый лад
G|----O--------- 3ья стpyна, откpыта
D|----2--------- 4ая стpyна, 2ой лад
A|----3--------- 5ая стpyна, 3ий лад
E|----X--------- 6ая стpyна, не игpается

K сожалению информация о том, каким пальцем прижимать каждую струну отсутствует на таблатуре, поэтому часто это указывается отдельно.

ГАММА
Гамма — это последовательность звуков, построенная в возрастающем или низпадающим порядке.

ДЛЯ ЧЕГО НУЖНЫ ГАММЫ
Гаммы были придуманы для развития техники игры на музыкальном инструменте. На каком бы вы ни училмсь играть инструменте, вам придётся играть гаммы — без этого обучение будет иметь меньшую эффективность. Гаммы обладают следующими особенностями:

1) Развавают растяжку пальцев левой руки
2) Развивают чувство грифа у левой руки
3) Развивают в правой руке независимость действий пальцев
4) Развивают слух
5) Развивают чувство ритма

ОСОБЕННОСТИ ИГРЫ ГАММ
Любую гамму нужно играть не просто так, а соблюдая ряд правил:

 — в правой руке играть нужно обязательно чередование пальцев:
указательный-средний, лучше всего способом игры с опорой — это когда
палец ударяет по струне и упирается в следующую, идущую выше
струну;

 — играть нужно громко и чётко, а не просто «наигрывать»;

 — между соседними звуками нужно стремиться делать одинаковые
промежутки;

 — пальцы левой руки должны прижимать струну как можно ближе к
ладовым порожкам — это развивает растяжку;

 — палец правой руки должен извлекать звук одновременно с постановкой
на лад пальца левой руки, и ни в коем случае не через паузу после того
как поставили палец на лад;

 — нужно постараться придать игре гаммы динамическую окраску — как
будто это простое музыкальное произведение;

Гаммы — основное упражнение для пальцев правой и левой рук. Начинайте играть медленно, а после того, как достигните чистого звучания ускоряйте темп. Играть гаммы нужно каждый день!

Гамма До-мажор
---------------------------------------------------------------------------
-------------------0−1−3−1-------------------------------------------------
-------------0−2------------2−0--------------------------------------------
---- 0−2−3-----------------------3−2−0-------------------------------------
--3---------------------------------------3--------------------------------
---------------------------------------------------------------------------

Гамма Ре-мажор
----------------------0----------------------------------------------------
-----------------2−3----3−2------------------------------------------------
----------0−2−4--------------4−2−0-----------------------------------------
--0−2−4------------------------------4−2−0---------------------------------
---------------------------------------------------------------------------
---------------------------------------------------------------------------

Гамма Ми-мажор
---------------------------------------------------------------------------
---------------------------------------------------------------------------
---------------------------------------------------------------------------
----------------1−2−4−2−1--------------------------------------------------
--------0−2−4--------------4−2−0-------------------------------------------
−0−2−4-----------------------------4−2−0-----------------------------------

Гамма Фа-мажор
---------------------------------------------------------------------------
---------------------------------------------------------------------------
-----------------------0---------------------------------------------------
---------------0−2−3----3−2−0----------------------------------------------
-------0−1−3--------------------3−1−0--------------------------------------
--1−3-----------------------------------3−1--------------------------------

Гамма Соль-мажор
---------------------------------------------------------------------------
---------------------------------------------------------------------------
--------------------0−2−0--------------------------------------------------
------------0−2−4---------4−2−0--------------------------------------------
----0−2−3-------------------------3−2−0------------------------------------
−3-----------------------------------------3-------------------------------

Гамма Ля-мажор
---------------------------------------------------------------------------
-------------------------0-------------------------------------------------
--------------------1−2----2−1---------------------------------------------
------------0−2−4---------------4−2−0--------------------------------------
----0−2−4-------------------------------4−2−0------------------------------
---------------------------------------------------------------------------

Гамма Си-мажор
---------------------------------------------------------------------------
-------------------------2-------------------------------------------------
-----------------1−3−4----4−3−1--------------------------------------------
---------1−2−4--------------------4−2−1------------------------------------
----2−4------------------------------------4−2-----------------------------
---------------------------------------------------------------------------

Комментарии (99 комментариев) на "Урок 14 Как читать табулатуры"

  1. александр:

    а как по табулатуре определить каким именно пальцем зажимать ту или иную струну на грифе?

    Thumb up Thumb down 0

  2. Moderator:

    На форум.

    Thumb up Thumb down 0

  3. откуда достат ету гамму?

    Thumb up Thumb down 0

  4. Moderator:

    Wildchild, запоминайте по видео, если не получается то на бумагу запишите...

    Thumb up Thumb down 0

  5. Maris:

    Можешь дописать как играть правой рукой( какими пальцами, поочередность и тд)

    Thumb up Thumb down 0

  6. Maris:

    1 и 2 палец правой руки это большой и указательный? или указательный и средний?

    Как я понял на видео один палец играет одну струну, а второй следующую за ней ... итак поочередно на струнах пальцы менять?

    Thumb up Thumb down 0

  7. Moderator:

    я это объяснял. Смотрите сначала все уроки попорядку...

    Thumb up Thumb down +1

  8. Юрий:

    А в гаммах, которые вы дали ниже под видео нижние строчки каждой табы это самая тонкая или самая толстая струна? Я обычно встречал табы, где нижняя строка- это самая тонкая струна.

    Thumb up Thumb down 0

  9. Юрий:

    Всё, разобрался.

    Thumb up Thumb down 0

  10. Андрей:

    Если ни чего не путаю, то на листочке, в видео, когда объясняете что такое табулатуры, ошибка в гамме.

    у вас на листочке так:

    ---------------------------

    ---------------------------

    ---------------------------

    -------------------0−2−3−

    ----------0−1−3----------

    -0−1−3-------------------

    а должно быть вроде так:

    ----------------------------

    ----------------------------

    ----------------------------

    -------------------0−2−3--

    ----------0−2−3-----------

    -0−1−3--------------------

    Или я все же ошибся?

    Thumb up Thumb down +1

  11. Moderator:

    Нет вы правы, там действительно ошибка...

    Thumb up Thumb down 0

  12. Андрей:

    Ура!, я не бесполезен))) Ну под видео укажите что ли... а то комменты почитал, народ переписывает гамму с листочка того... Честно говоря не понимаю за чем, я просто прослушал раза три ваши объяснения и все запомнил, потом уже этот листик увидел, ну и ошибку...

    Thumb up Thumb down 0

  13. Moderator:

    сделаем...

    Thumb up Thumb down 0

  14. Адик:

    Гаммы играть указательным и средним пальцами поочередно? или можно использовать другие пальцы?

    Thumb up Thumb down 0

  15. Moderator:

    желательно сначала развивать эти два пальца

    Thumb up Thumb down 0

  16. Владимир:

    -------0−2−4------------

    -0−2−4-----------------

    Не совсем понимаю эту запись (Ми-мажор)

    Здесь нужно одновременно у струны играть?

    Thumb up Thumb down 0

  17. Владимир:

    2* струны

    Thumb up Thumb down 0

  18. Moderator:

    на форум...

    Thumb up Thumb down 0

  19. Temur:

    а как пул-офф обозначается или же я видел такие табы : 0−7−0 , как их играть?

    Thumb up Thumb down 0

  20. Moderator:

    на форум...

    Thumb up Thumb down 0

  21. max:

    я ваще не понял как табы играть!(( а как играть это?

    D|---------------------------|

    A|---------------------------|

    F|---------------------------|

    C|---------------------------|

    G|---------------------------|

    C|-0−0--0−13/0--0−0−0−0−0−4*-|

    D|-20---19------------------------20--------19-|

    A|------------19---16-------16--------12-------|

    F|---------------------------------------------|

    C|---------------------------------------------|

    G|---------------------------------------------|

    C|---------------------------------------------|

    D|---------------------------------------------|

    A|---------------------------------------------|

    F|----------------------------7--------------4-|

    C|-2--------------------------5--------------x-|

    G|-0------------2-------------3--------------5-|

    C|--------------0----------------------------3-|

    Thumb up Thumb down 0

  22. Moderator:

    на форум...

    Thumb up Thumb down 0

  23. Denisria:

    Молодцы парни, Ваш сайт мне оч понравился, теперь пользуюсь только им

    Thumb up Thumb down +1

  24. Артём:

    В некоторых текстах с аккордами,встречаются обозначения вроде: h2,h3 и т.д, не могли бы вы пояснить,что они означают?

    Thumb up Thumb down 0

  25. Андерсон...:

    а обязательно это учить? можно сразу на барэ?

    Thumb up Thumb down 0

  26. Moderator:

    можно, но тут учить то нечего...

    Thumb up Thumb down 0

  27. Андерсон...:

    ну всё равно не проходить этот урок?

    Thumb up Thumb down 0

  28. Gm Dm

    E||-----------5-------3-----|--10--------8−10−8---6--5\-1--|

    H||--------3----------------|--10--------------------------|

    G||-----3----------3-----3--|------------------------------| \

    D||-------------------5-----|--------10-------10--8--7\-3--| / 4 раза

    A||-------------------------|------------------------------|

    E||--3----------------------|--10--------------------------| как её читать

    Thumb up Thumb down 0

  29. Maxander:

    Здравствуйте, а что значит столбец букв «Х» на клавиатуре по всем струнам ?

    Thumb up Thumb down 0

  30. Стас:

    «Х» вроде заглужка лодонью?

    Thumb up Thumb down 0

  31. Руслан:

    Ребят вы читать умеете в частности Maxander, Стас?

    "Струны, которые не должны звучать в аккорде помечаются 'X' — это имеет значение только для аккордов. "

    Thumb up Thumb down 0

  32. через год я стану маэстро:

    скажите просто какие пальцы использются на левой а какие на правой и всё!!! спасибо за ранее!!!

    Thumb up Thumb down 0

  33. Санька Балашов:

    Можно ли добавить таблатуры более сложного типа и подлинее ?

    Thumb up Thumb down 0

  34. Артур:

    пока быстро пальцы не научюсь переставлять не переходить к след. уроку????

    Thumb up Thumb down 0

  35. Moderator:

    Артур, можно переходить, просто не забывайте это упражнение тренировать каждый день

    Thumb up Thumb down 0

  36. Bazserega:

    Писал на форуме, не отвечает ни кто

    Добрый день! У меня вопрос по 14 уроку. Какими пальцами правильно зажимать струны при игре гамм.

    1 Используеться ли мизинец при игре гамм???

    2 Можно ли считать что:

    первый лад — указательный палец

    второй лад- средный палец

    третий лад — безымянный палец

    четвертый лад — мизинец?

    Thumb up Thumb down 0

  37. Daniel:

    в песне «постой паровоз» имеется такая табулатура

    Е −0−0−5−3−1-----------0---------3−3--------8−7−5−4---

    Н -------------3−1−0------3−1---------1−5−5-------------

    Как я понимаю Е- 1-я струна, а вот Н не указывается на этом форуме.

    Не смогли бы подсказать?

    Thumb up Thumb down 0

  38. Cas:

    спасибо все понятно давно хотела в них разобратся

    Thumb up Thumb down 0

  39. Ярослав:

    подскажите как играть правой рукой пожалуйста. указательным и средним надо? и так чтобы когда по струнам бьешь они на соседней струне оставались?

    Thumb up Thumb down 0

  40. Шамиль:

    Ярослав, советую открыть видеокурс и пройти его. После него вопросов станет значительно меньше, так же найдете ответ и на этот вопрос.

    Thumb up Thumb down 0

  41. Малик:

    Можно вопрос а как бой посмотреть по табулатуре потому что я хочу научиться играть Iowa это песня простая но там кроме перебора есть бой, а песня ток по табулатуре есть

    Thumb up Thumb down 0

  42. ришат:

    а гед метраном я его ненашол

    Thumb up Thumb down 0

  43. ТЕРОРИСТ:

    спс за уроки пока что все получаеться)

    Thumb up Thumb down 0

  44. ТЕРОРИСТ:

    у меня куча вопросов...Гаммы гдето встречаються?сколько их вообще?акорды играються чясто в музыке?музыка вообще построена на акордах?ето все акорды которые выложили здесь или ище есть?переход с труны на струну как лучше делать:а)с струны сразуж на струну;б)с струны оторвать медиатор и ударить по 2 струне.вопрос какой вариант?ето как понемать -------------?

    Е −0−0−5−3−1-----------0---------3−3--------8−7−5−4---

    Н -------------3−1−0------3−1---------1−5−5-------------

    видите 3-ка почти под 3_кой?(как проиграть на гитаре?бить по2 струнам или переход быстрый делать?

    Thumb up Thumb down 0

  45. ТЕРОРИСТ:

    на чем вообще музыка построена?и если можно самое важное напишите про такты,ток без философии)

    Thumb up Thumb down 0

  46. Сергей:

    Позскажите пожалуйста.

    Просто с таблатурами все понятно, легко и очень просто. Вот только не могу понять, как играть таблатуры с подписанными сверху аккордами. Ведь аккорд никак не соответствует зажимаемым струнам в таблатуре?!?!?!?!????

    Например отличная песня Виктора Цоя «Раньше в твоих глазах отражались костры»:

    Em Em/G Hm7 Em Em/G Hm7

    Раньше в твоих глазах отражались костры

    E|-----------------|-----------------|-----------------|--------------

    H|-----------------|-----------------|-----------------|-----3-----3--

    G|-------0-------0-|-------0---------|-------0-------0-|---0-----0---0---|

    D|-----4-------4---|-----7---7-------|-----4-------4---|-------0-------0-|

    A|---2-------2-----|---5-------5---5-|---2-------2-----|-2------------

    E|-0-------3-------|-7-----------7---|-0-------3-------|--------------

    Em Em/G Hm7 Em Em/G Hm7

    Теперь лишь настольная лампа рассеяный свет...

    E|-----------------|-----------------|-----------------|-----------------|

    H|-----------------|-----------------|-----------------|-----3-----3-----|

    G|-------0-------0-|-------0---------|-------0-------0-|---0-----0---0---|

    D|-----4-------4---|-----7---7-------|-----4-------4---|-------0-------0-|

    A|---2-------2-----|---5-------5---5-|---2-------2-----|-2---------------|

    E|-0-------3-------|-7-----------7---|-0-------3-------|-----------------|

    G Hm7 Em Em/G Hm7

    Что-то проходит мимо тебе становится не по себе

    E|-----------------|-----------------|-----------------|-----------------|

    H|-----------------|-----------------|-----------------|-----3-----3-----|

    G|-------0---------|-------0---------|-------0-------0-|---0-----0---0---|

    D|-----0---0-------|-----7---7-------|-----4-------4---|-------0-------0-|

    A|---2-------2---2-|---5-------5---5-|---2-------2-----|-2---------------|

    E|-3-----------3---|-7-----------7---|-0-------3-------|-----------------|

    Em Em/G Hm7 Em Em/G Hm7...

    Это был новый день — в нем тебя нет...

    E|-----------------|-----------------|-----------------|-----------------|

    H|-----------------|-----------------|-----------------|-----3-----3-----|

    G|-------0-------0-|-------0---------|-------0-------0-|---0-----0---0---|

    D|-----4-------4---|-----7---7-------|-----4-------4---|-------0-------0-|

    A|---2-------2-----|---5-------5---5-|---2-------2-----|-2---------------|

    E|-0-------3-------|-7-----------7---|-0-------3-------|-----------------|

    Очень, очень прошу помогите разабраться и понять!!!

    Thumb up Thumb down 0

  47. Женя:

    Вот гамма должна улчшать растяжку!Вот я играю гамму но не чусвую что мою пальцы тянутся!я правильно играю?или так и должно быть!!но при всём при этом я научился быстро играть гаммы и чуствую что левая рука разрабатывается!!!

    Thumb up Thumb down 0

  48. Анатолий:

    Возникает проблема,когда пытаюсь переставить лады на одной струне; получается,что предыдущий звук,заглушаясь, становиться очень коротким,а следующий просто не звучит. Как возможно это исправить?

    Thumb up Thumb down 0

  49. Михаил:

    Что же вы так сложно объясняете?)))

    Пример 5−0, пятая струна открытая и так далее. И без всяких букв с линейками))

    Thumb up Thumb down 0

Отправить комментарий